tout le punk,le rock et le metal en seul forum
 
AccueilPortailFAQRechercherS'enregistrerMembresGroupesConnexion

Partagez | 
 

 debuter en guitare

Aller en bas 
AuteurMessage
vianney
admin webmaster
admin webmaster
avatar

Nombre de messages : 298
Localisation : perrier dans l'eure
Date d'inscription : 16/09/2005

MessageSujet: debuter en guitare   Mar 8 Nov à 10:42

pour cmmencer la guitare il faut commencer par des morceaux simple essayer pas les guns'n'roses vous y ariverais pas
donc commencer par simple genre come as you are de nivana,petit arpege facile


-------------------------------
-------------------------------
-------------------------------
-------------------------------
---------0---0---------2-----2-
-0-0-1-2---2---2-2-1-0---0-0---


puis pour aprendre les accord vous jouez

the white stripe:seven nation army

couplet
------------------------
------------------------
------------------------
------------------------ X12
------------------------
-5-5-8-5-3-1-0-------

pre refrain

------------------------------------
------------------------------------
------------------------------------
5-5-5-5-5-5-5--7-7-7-7-7-7-7--
5-5-5-5-5-5-5--7-7-7-7-7-7-7--
3-3-3-3-3-3-3--5-5-5-5-5-5-5--

refrain

----------------------------------------------------
----------------------------------------------------
----------------------------------------------------X4
9-12-9-7-5-4---9-12-9-7-5-7-5-4--------------
7-10-7-5-3-2---7-10-7-5-3-5-3-2--------------
7-10-7-5-3-2---7-10-7-5-3-5-3-2--------------

refrain deux

----------------------------------------------------
----------------------------------------------------
----------------------------------------------------
9-12-9-7-5-4---9-12-9-7-5-7-5-4--------------X4
7-10-7-5-3-2---7-10-7-5-3-5-3-2--------------
7-10-7-5-3-2---7-10-7-5-3-5-3-2--------------

--------------------------------------------------
--------------------------------------------------
9-12-9-7-5-4---9-12-9-7-5-7-5-4--------------
7-10-7-5-3-2---7-10-7-5-3-5-3-2--------------X4
7-10-7-5-3-2---7-10-7-5-3-5-3-2--------------
---------------------------------------------------

ordre:
couplet
pre refrain
refrain 1
couplet
pre refrain
refrain 2
couplet
pre refrain
refrain

un fois les accord apris pous pouvez jouez





--------------------------------------------------------------------------------

good charlottte :lifestyle of rich and famous

Verse
e--------------------------- -----
b--------------------------------
g---7-7----9-9-----------7-7--
d---7-7----9-9----5-5----7-7 -
a---5-5----7-7----5-5----5-5---
e-----------------3-3----------

Pre-Chorus
e---------------------------------------------------------------------------
b--------------------------------------------------------------------------
g----4-4-4-4-4-4-4-4-------------------7-7-7-7-7-7-7-7--2-2-2-2-2-2-2-2----
d----4-4-4-4-4-4-4-4--5-5-5-5-5-5-5-5--7-7-7-7-7-7-7-7--2-2-2-2-2-2-2-2----
a----2-2-2-2-2-2-2-2--5-5-5-5-5-5-5-5--5-5-5-5-5-5-5-5--0-0-0-0-0-0-0-0----
e---------------------3-3-3-3-3-3-3-3---------------------------------------

Chorus
e-----------------------------------------------------------------------
b----------------------------------------------------------------------
g--7-7-7-7-7-7-7-7--9-9-9-9-9-9-9-9-------------------7-7-7-7-7-7-7-7----
d--7-7-7-7-7-7-7-7--9-9-9-9-9-9-9-9--5-5-5-5-5-5-5-5--7-7-7-7-7-7-7-7----
a--5-5-5-5-5-5-5-5--7-7-7-7-7-7-7-7--5-5-5-5-5-5-5-5--5-5-5-5-5-5-5-5---
e------------------------------------3-3-3-3-3-3-3-3--------------------

Ending
e--------------------------------------------------|---juste troisieme fois
b--------------------------------------------------|------------------
g--7-7-7-7-7-7-7-7--9-9-9-9-9-9-9-9----------|------------------
d--7-7-7-7-7-7-7-7--9-9-9-9-9-9-9-9----------|-----5-5-5-5-5-
a--5-5-5-5-5-5-5-5--7-7-7-7-7-7-7-7----------|-----5-5-5-5-5-
e--------------------------------------------------|-----3-3-3-3-3-

Verse 2x
Pre-Chorus 2x
Chorus 2x
Verse 2x
Pre-Chorus 2x
Chorus 2x
Bridge (no guitar)
Chorus 3x
Ending 3x

bon maintenat etape dificile aprendre le barret


jimmy hendrix purple haze

--------------------------------------------
-8-8-8-8-8---4-4-4-4-4---6-6-6-6-6----
-7-7-7-7-7----5-5-5-5-5---7-7-7-7-7----
-6-6-6-6-6---5-5-5-5-5---7-7-7-7-7----
-7-7-7-7-7---3-3-3-3-3---5-5-5-5-5----

entrainez vous a ça c'est deja un tresbon debut
Revenir en haut Aller en bas
Voir le profil de l'utilisateur http://punk-rock-metal.zikforum.com
 
debuter en guitare
Revenir en haut 
Page 1 sur 1
 Sujets similaires
-
» Debuter a la lapsteel?
» guitare a resonateur suite
» [Photos] Pose d'un résonateur sur une guitare 'normale'
» Choix d'une guitare resonateur ..
» guitare slide indienne.

Permission de ce forum:Vous ne pouvez pas répondre aux sujets dans ce forum
punk,rock,metal :: Instrument :: guitare-
Sauter vers: